123GuitarTabs.com

The Best Guitar Forum On The Web!
 
 HomeHome  FAQFAQ  SearchSearch  MemberlistMemberlist  RegisterRegister  Log in  
Log in
Username:
Password:
Log in automatically: 
:: I forgot my password
Latest topics
» Well Then
Wed Nov 05, 2008 12:46 am by BassXRocker

» What Are You Listening To Right Now?
Mon Nov 03, 2008 6:17 pm by Starom

» Band names that would never make it
Mon Nov 03, 2008 6:16 pm by Starom

» Best, Good, Bad ( and maybe Worse)
Sun Oct 26, 2008 12:18 pm by Starom

» Tab requests
Tue Oct 21, 2008 8:52 pm by Buckethead

» Analog Recording
Wed Oct 15, 2008 10:15 pm by Blackdog7

» what now?
Wed Oct 15, 2008 10:10 pm by Blackdog7

» John Mayer
Wed Oct 15, 2008 12:43 am by Blackdog7

» Simple Man intro
Wed Oct 15, 2008 12:41 am by Blackdog7

Top posters
numberonejrio (373)
 
BassXRocker (294)
 
GuitarGod804 (239)
 
jimthams (231)
 
Buckethead (196)
 
Starom (182)
 
TheLonging (136)
 
Devil_panda (95)
 
Nizzi (62)
 
Blackdog7 (47)
 
Poll
Forums new look
Like it!
43%
 43% [ 3 ]
Change back to the old style!
57%
 57% [ 4 ]
Total Votes : 7
Search
 
 

Display results as :
 
Rechercher Advanced Search
Social bookmarking
Social bookmarking digg  Social bookmarking delicious  Social bookmarking reddit  Social bookmarking stumbleupon  Social bookmarking slashdot  Social bookmarking yahoo  Social bookmarking google  Social bookmarking blogmarks  Social bookmarking live      

Bookmark and share the address of 123guitartabs.com on your social bookmarking website

Bookmark and share the address of 123GuitarTabs.com on your social bookmarking website
Tuner

Share | 
 

 Abxyated - Blender

Go down 
AuthorMessage
Starom
Registered User
avatar

Posts : 182
Join date : 2008-07-31
Location : Manchester ^^

PostSubject: Abxyated - Blender   Tue Aug 19, 2008 11:49 am

Track 2
S S S S S S S S S S S S S S S S
C#||-------|-------|-------|--10-5-9-5-8-5-6-5-10-5-9-5-8-5-6-5-|
G#||-------|-------|-------|------------------------------------|
E ||-------|-------|-------|------------------------------------|
B ||-------|-------|-------|------------------------------------|
F#||-------|-------|-------|---0-L-L-L-L-L-L-L--L-L-L-L-L-L-L-L-|
B ||-------|-------|-------|---0-L-L-L-L-L-L-L--L-L-L-L-L-L-L-L-|


S S S S S S S S S S S S S S S S E E S E S E E S E S
--10-5-9-5-8-5-6-5-10-5-9-5-8-5-6-5-|----------------------------|
------------------------------------|----------------------------|
------------------------------------|----------------------------|
------------------------------------|----------------------------|
---0-L-L-L-L-L-L-L--L-L-L-L-L-L-L-L-|--0--0--0-0--0-0--0--0-0--0-|
---0-L-L-L-L-L-L-L--L-L-L-L-L-L-L-L-|--0--0--0-0--0-0--0--0-0--0-|


E E S E S E E S E S S S S S S S S S S S S S S S S S
----------------------------|--10-5-9-5-8-5-6-5-10-5-9-5-8-5-6-5-|
----------------------------|------------------------------------|
----------------------------|------------------------------------|
----------------------------|------------------------------------|
--0--0--0-0--0-0--0--0-0--0-|------------------------------------|
--0--0--0-0--0-0--0--0-0--0-|------------------------------------|


S S S S S S S S S S S S S S S S E E S E S E E S E S
--10-5-9-5-8-5-6-5-10-5-9-5-8-5-6-5-|----------------------------|
------------------------------------|----------------------------|
------------------------------------|----------------------------|
------------------------------------|----------------------------|
------------------------------------|--0--0--0-0--0-0--0--0-0--0-|
------------------------------------|--0--0--0-0--0-0--0--0-0--0-|


E E S E S H W. W
------------------------|-------------------|-------------------|
------------------------|-------------------|-------------------|
------------------------|-------------------|-------------------|
------------------------|-------------------|--0----------------|
--0--0--0-0--0-3--------|--L----------------|--0----------------|
--0--0--0-0--0-3--------|--L----------------|--0----------------|


W W W
-------------------|-------------------|-------------------|
-------------------|-------------------|-------------------|
-------------------|-------------------|-------------------|
--0----------------|--0----------------|--0----------------|
--0----------------|--0----------------|--0----------------|
--0----------------|--0----------------|--0----------------|


Q Q S S S S S S S S Q Q E E E E
----------------------------|----------------------------|
----------------------------|----------------------------|
----------------------------|------------20--20--20--20--|
----------------------------|----------------------------|
--0----0----5-6-8-6-5-6-9-6-|--3----3-----L---L---L---L--|
--0----0----5-6-8-6-5-6-9-6-|--3----3-----L---L---L---L--|


Q Q S S S S S S S S Q Q E E E E
----------------------------|----------------------------|
----------------------------|----------------------------|
----------------------------|------------20--19--18--17--|
----------------------------|----------------------------|
--0----0----5-6-8-6-5-6-9-6-|--3----3-----L---L---L---L--|
--0----0----5-6-8-6-5-6-9-6-|--3----3-----L---L---L---L--|


Q Q S S S S S S S S Q Q E E E E
----------------------------|----------------------------|
----------------------------|----------------------------|
----------------------------|------------20--20--20--20--|
----------------------------|----------------------------|
--0----0----5-6-8-6-5-6-9-6-|--3----3-----L---L---L---L--|
--0----0----5-6-8-6-5-6-9-6-|--3----3-----L---L---L---L--|


Q Q S S S S S S S S Q Q E E S S S S
----------------------------|--------------------------------|
----------------------------|--------------------------------|
----------------------------|------------20--19--18-17-16-15-|
----------------------------|--------------------------------|
--0----0----5-6-8-6-5-6-9-6-|--3----3-----L---L---L--L--L--L-|
--0----0----5-6-8-6-5-6-9-6-|--3----3-----L---L---L--L--L--L-|


S S S S S S S S S S S S S S S S S S S S S S S S S S S S S S S S
--10-5-9-5-8-5-6-5-10-5-9-5-8-5-6-5-|--10-5-9-5-8-5-6-5-10-5-9-5-8-5-6-5-|
------------------------------------|------------------------------------|
------------------------------------|------------------------------------|
------------------------------------|------------------------------------|
---0-L-L-L-L-L-L-L--L-L-L-L-L-L-L-L-|---0-L-L-L-L-L-L-L--L-L-L-L-L-L-L-L-|
---0-L-L-L-L-L-L-L--L-L-L-L-L-L-L-L-|---0-L-L-L-L-L-L-L--L-L-L-L-L-L-L-L-|


E E S E S E E S E S E E S E S E E S E S
----------------------------|----------------------------|
----------------------------|----------------------------|
----------------------------|----------------------------|
----------------------------|----------------------------|
--0--0--0-0--0-0--0--0-0--0-|--0--0--0-0--0-0--0--0-0--0-|
--0--0--0-0--0-0--0--0-0--0-|--0--0--0-0--0-0--0--0-0--0-|


S S S S S S S S S S S S S S S S S S S S S S S S S S S S S S S S
--10-5-9-5-8-5-6-5-10-5-9-5-8-5-6-5-|--10-5-9-5-8-5-6-5-10-5-9-5-8-5-6-5-|
------------------------------------|------------------------------------|
------------------------------------|------------------------------------|
------------------------------------|------------------------------------|
------------------------------------|------------------------------------|
------------------------------------|------------------------------------|


E E S E S E E S E S E E S E S E E S E S W
----------------------------|----------------------------|-------------------|
----------------------------|----------------------------|-------------------|
----------------------------|----------------------------|-------------------|
----------------------------|----------------------------|-------------------|
--0--0--0-0--0-0--0--0-0--0-|--0--0--0-0--0-0--0--0-0--0-|--0----------------|
--0--0--0-0--0-0--0--0-0--0-|--0--0--0-0--0-0--0--0-0--0-|--0----------------|


W W W
-------------------|-------------------|-------------------|
-------------------|-------------------|-------------------|
-------------------|-------------------|-------------------|
-------------------|-------------------|-------------------|
--0----------------|--L----------------|--L----------------|
--0----------------|--L----------------|--L----------------|


Q Q S S S S S S S S Q Q S S S S S S S S
----------------------------|----------------------------|
----------------------------|----------------------------|
----------------------------|------------8-7-6-5-8-7-6-5-|
----------------------------|----------------------------|
--0----0----0-1-3-4-3-4-1-3-|--0----0----0-L-L-L-L-L-L-L-|
--0----0----0-1-3-4-3-4-1-3-|--0----0----0-L-L-L-L-L-L-L-|


Q Q S S S S S S S S Q Q S S S S S S S S W.
----------------------------|----------------------------|-------------------||
----------------------------|----------------------------|-------------------||
----------------------------|------------8-7-6-5-4-3-2-1-|--0----------------||
----------------------------|----------------------------|-------------------||
--0----0----0-1-3-4-3-4-1-3-|--0----0----0---L-L-L-L-L-L-|-------------------||
--0----0----0-1-3-4-3-4-1-3-|--0----0----0-L-L-L-L-L-L-L-|-------------------||




Duration Legend
---------------
W - whole
H - half
Q - quarter
E - 8th
S - 16th
T - 32nd
X - 64th
. - note dotted
|-n-| - n-tuplets

______________________________


This one is essentially more solo based than everything else I've written ^^ There's also a harmony, but there wasn't much part in posting that XD If you want to hear the song, visit:

www.myspace.com/abyxated

The song is called Blender and I think it's second in the list Smile

Thanks for reading!! ^^
Back to top Go down
View user profile http://www.furaffinity.net/user/morats
 
Abxyated - Blender
Back to top 
Page 1 of 1

Permissions in this forum:You cannot reply to topics in this forum
123GuitarTabs.com :: Music :: Tab Talk :: User Tabs-
Jump to: