123GuitarTabs.com

The Best Guitar Forum On The Web!
 
 HomeHome  FAQFAQ  SearchSearch  MemberlistMemberlist  RegisterRegister  Log in  
Log in
Username:
Password:
Log in automatically: 
:: I forgot my password
Latest topics
» Well Then
Wed Nov 05, 2008 12:46 am by BassXRocker

» What Are You Listening To Right Now?
Mon Nov 03, 2008 6:17 pm by Starom

» Band names that would never make it
Mon Nov 03, 2008 6:16 pm by Starom

» Best, Good, Bad ( and maybe Worse)
Sun Oct 26, 2008 12:18 pm by Starom

» Tab requests
Tue Oct 21, 2008 8:52 pm by Buckethead

» Analog Recording
Wed Oct 15, 2008 10:15 pm by Blackdog7

» what now?
Wed Oct 15, 2008 10:10 pm by Blackdog7

» John Mayer
Wed Oct 15, 2008 12:43 am by Blackdog7

» Simple Man intro
Wed Oct 15, 2008 12:41 am by Blackdog7

Top posters
numberonejrio (373)
 
BassXRocker (294)
 
GuitarGod804 (239)
 
jimthams (231)
 
Buckethead (196)
 
Starom (182)
 
TheLonging (136)
 
Devil_panda (95)
 
Nizzi (62)
 
Blackdog7 (47)
 
Poll
Forums new look
Like it!
43%
 43% [ 3 ]
Change back to the old style!
57%
 57% [ 4 ]
Total Votes : 7
Search
 
 

Display results as :
 
Rechercher Advanced Search
Social bookmarking
Social bookmarking digg  Social bookmarking delicious  Social bookmarking reddit  Social bookmarking stumbleupon  Social bookmarking slashdot  Social bookmarking yahoo  Social bookmarking google  Social bookmarking blogmarks  Social bookmarking live      

Bookmark and share the address of 123guitartabs.com on your social bookmarking website

Bookmark and share the address of 123GuitarTabs.com on your social bookmarking website
Tuner

Share | 
 

 A song I made up: Celebrities

Go down 
AuthorMessage
TheLonging
Moderator
avatar

Posts : 136
Join date : 2008-06-06
Age : 24

PostSubject: A song I made up: Celebrities   Sat Jun 07, 2008 1:15 am

The main riff is simple, so simple, I can play it and I am a noob. The solo is hard.

Celebrities (5/8, BPM: 151)

E :------------------|| ------------------------- 3|
B :------------------|| ------------------------- ||
G :------------------||*-------------------------*||
D :------------------||*-------------------------*||
A :------------------|| 10-10-10-10-*-10-*-10-10- ||
E :------------------|| -9--9--9--9-*--9-*--9--9- ||


Ve r se 1
E :| -------------------------|------------------------- 5|
B :| -------------------------|------------------------- ||
G :|*-------------------------|-------------------------*||
D :|*-------------------------|-------------------------*||
A :| -10-10-10-10-10*---------|10-10-10-10-10-x-xx-xx-xx ||
E :| --9--9--9--9--9*---------|-9--9--9--9--9-x-xx-xx-xx ||


Who's Ne xt ? In tr o Riff 1
E :| -------------------- 6|----------------|| ------------------------- 3|
B :| -------------------- ||----------------|| ------------------------- ||
G :|*--------------------*||----------------||*-------------------------*||
D :|*--------------------*||----------------||*-------------------------*||
A :| --------10-10-10-10- ||-*--------------|| 10-10-10-10-*-10-*-10-10- ||
E :| 9-9-9-9------------- ||----------------|| -9--9--9--9-*--9-*--9--9- ||


Ve r se Riff
E :| -------------------------|-------------------------|
B :| -------------------------|-------------------------|
G :|*-------------------------|-------------------------|
D :|*-------------------------|-------------------------|
A :| -10-10-10-10-10*---------|10-10-10-10-10-x-xx-xx-xx|
E :| --9--9--9--9--9*---------|-9--9--9--9--9-x-xx-xx-xx|


V er s e 2
E :| -------------------------|------------------------- 1|----|
B :| -------------------------|------------------------- ||----|
G :|*-------------------------|-------------------------*||----|
D :|*-------------------------|-------------------------*||----|
A :| -10-10-10-10-10*---------|10-10-10-10-10-x-xx-xx-xx ||----|
E :| --9--9--9--9--9*---------|-9--9--9--9--9-x-xx-xx-xx ||x-x-|

Who's Ne xt ??
E :| -------------------- 6|----------------||
B :| -------------------- ||----------------||
G :|*--------------------*||----------------||
D :|*--------------------*||----------------||
A :| --------10-10-10-10- ||-*--------------||
E :| 9-9-9-9------------- ||----------------||

Tempo decrease to 80, TS to 4/4:

E :----------------- 1|----------------|3--------10--1--2|
B :----------------- ||----------------|-----------------|
G :-----------x-----*||----------------|-----------------|
D :-----------------*||----------------|-----------------|
A :0---------------- ||----------------|-----------------|
E :------------2-10- ||*---------------|-----------------|



E :-h4----(2)-----------|--------------------|-------------------|
B :----p2---------------|--------------------|-------------------|
G :---------------------|5----------10---1---|------10--1--------|
D :---------------------|x-10--------1--10---|-------1-10--------|
A :---------------------|---1----------------|-------------------|
E :---------------------|--------------------|-------------------|


S o l o 2 Tempo increase to 151
E :----------------|1-------------------------9------------|
B :----------------|--2--------------------10---12---------|
G :----------------|----8---------------13----------2------|
D :----------------|------0----------23------------23------|
A :----------------|--------10----11------------------3----|
E :----------------|-----------20-----------------------4-4|



E :-------------------------------|
B :-------------------------------|
G :-------------------------------|
D :--------------------5-5-5-5-5-6|
A :----------2-2-2-2-2------------|
E :1-1-1-1-1----------------------|



E :-------------------------12-12-12-12-1---|----------------|
B :----------10-10-10-10-10---------------18|----------------|
G :6-6-6-6-6--------------------------------|----------------|
D :-----------------------------------------|----------------|
A :-----------------------------------------|----------------|
E :-----------------------------------------|----------------|



E :--------------4---4----5--|------------------------|
B :1-----------3---4---10---2|1-----1-----1-----1-----|
G :--18------3---------------|--18----18----18----18--|
D :--------------------------|------------------------|
A :--------------------------|------------------------|
E :--------------------------|------------------------|


S o l o 3
E :10----12---10----12*--1---1-2-1-4-5|5-2-10-1-6-0-0-1-1-2-3-5-7-4---6|
B :---15----9----15----9---2----------|-----------------------------5--|
G :-----------------------------------|--------------------------------|
D :-----------------------------------|--------------------------------|
A :-----------------------------------|--------------------------------|
E :-----------------------------------|--------------------------------|



E :------6-----8----------6------|6------------------------|
B :2-5-5---2-5----------5---2-5-5|--2-5--------------------|
G :--------------7---------------|-------------------------|
D :------------------------------|-------------------------|
A :----------------6-------------|------------------------3|
E :------------------20----------|-----xxxxx4-4-4-4-4-3-3--|



E :------1--1-----------|0-0-0-0-0--------------------|----------------|
B :----1-2-10-----------|----------8-8-8-8------------|----------------|
G :--1-2----------------|-----------------------------|----------------|
D :1-2------------------|-----------------------------|----------------|
A :2--------------------|------------------1-1-1-1----|----------------|
E :---------------------|--------------------------2-2|2---------------|



E :----------1-----|----------------|
B :----------------|----------------|
G :----------------|----------------|
D :----------------|----------------|
A :----------------|----------------|
E :----------------|----------------|


In tr o Riff 2 (TS to 5/8)
E :| ------------------------- 3|
B :| ------------------------- ||
G :|*-------------------------*||
D :|*-------------------------*||
A :| 10-10-10-10-*-10-*-10-10- ||
E :| -9--9--9--9-*--9-*--9--9- ||


Ve r se 3
E :| -------------------------|------------------------- 1|
B :| -------------------------|------------------------- ||
G :|*-------------------------|-------------------------*||
D :|*-------------------------|-------------------------*||
A :| *10-10-10-10-10*---------|10-10-10-10-10-x-xx-xx-xx ||
E :| *-9--9--9--9--9*---------|-9--9--9--9--9-x-xx-xx-xx ||


WHO'S NE XT ?? ?
E :| -------------------- 6|
B :| -------------------- ||
G :|*--------------------*||
D :|*--------------------*||
A :| --------10-10-10-10- ||
E :| 9-9-9-9------------- ||


WHO'S NE XT ?? ? Pa rt 2
E :--------------------|--------------------|--------------------|
B :--------------------|--------------------|--------------------|
G :--------------------|--------------------|--------------------|
D :--------------------|--------------------|--------------------|
A :--------10-10-10-10-|--------10-10-10-10-|--------10-10-10-10-|
E :9-9-9-9-------------|9-9-9-9-------------|9-9-9-9-------------|



E :--------------------|--------------------|--------------------|
B :--------------------|--------------------|--------------------|
G :--------------------|--------------------|--------------------|
D :--------------------|--------------------|--------------------|
A :--------10-10-10-10-|--------10-10-10-10-|--------10-10-10-10-|
E :9-9-9-9-------------|9-9-9-9-------------|9-9-9-9-------------|



E :--------------------|
B :--------------------|
G :--------------------|
D :--------------------|
A :--------10-10-10-10-|
E :9-9-9-9-------------|


Outro (Begin fadeout)
E :--------------------|--------------------|--------------------|
B :--------------------|--------------------|--------------------|
G :--------------------|--------------------|--------------------|
D :--------------------|--------------------|--------------------|
A :--------10-10-10-10-|--------10-10-10-10-|--------10-10-10-10-|
E :9-9-9-9-------------|9-9-9-9-------------|9-9-9-9-------------|



E :--------------------|--------------------|--------------------|
B :--------------------|--------------------|--------------------|
G :--------------------|--------------------|--------------------|
D :--------------------|--------------------|--------------------|
A :--------10-10-10-10-|--------10-10-10-10-|--------10-10-10-10-|
E :9-9-9-9-------------|9-9-9-9-------------|9-9-9-9-------------|



E :--------------------|--------------------|--------------------|
B :--------------------|--------------------|--------------------|
G :--------------------|--------------------|--------------------|
D :--------------------|--------------------|--------------------|
A :--------10-10-10-10-|--------10-10-10-10-|--------10-10-10-10-|
E :9-9-9-9-------------|9-9-9-9-------------|9-9-9-9-------------|


Fadeout
E :--------------------|--------------------|--------------------|
B :--------------------|--------------------|--------------------|
G :--------------------|--------------------|--------------------|
D :--------------------|--------------------|--------------------|
A :--------10-10-10-10-|--------10-10-10-10-|--------10-10-10-10-|
E :9-9-9-9-------------|9-9-9-9-------------|9-9-9-9-------------|

You like? :D

_________________
\(_o)/

123guitartabs.com


Last edited by TheLonging on Sat Jun 07, 2008 1:20 am; edited 3 times in total
Back to top Go down
View user profile http://www.123guitartabs.com/
GuitarGod804
Admin
avatar

Posts : 239
Join date : 2008-05-19
Age : 38
Location : Richmond, Va

PostSubject: Re: A song I made up: Celebrities   Sat Jun 07, 2008 1:17 am

post that through the form on the site and Ill put it up for ya if you wish Smile
Back to top Go down
View user profile http://tabs123guitar.forumotion.com
TheLonging
Moderator
avatar

Posts : 136
Join date : 2008-06-06
Age : 24

PostSubject: Re: A song I made up: Celebrities   Sat Jun 07, 2008 1:21 am

Thanks. I posted this here because my friend (who wrote the song BTW; I co-wrote it and did the solo) committed suicide a long time ago.
Back to top Go down
View user profile http://www.123guitartabs.com/
GuitarGod804
Admin
avatar

Posts : 239
Join date : 2008-05-19
Age : 38
Location : Richmond, Va

PostSubject: Re: A song I made up: Celebrities   Sat Jun 07, 2008 1:22 am

Man Im sorry to hear that, I lost a great friend last year over the same thing.
Back to top Go down
View user profile http://tabs123guitar.forumotion.com
Sponsored content




PostSubject: Re: A song I made up: Celebrities   

Back to top Go down
 
A song I made up: Celebrities
Back to top 
Page 1 of 1
 Similar topics
-
» need help writing a song
» did you know that there is a limbo song?
» First Person That Comes To Your Mind When You Hear A Love SONG!
» my fravortie song.......lolololol
» Song about Bobby Fischer

Permissions in this forum:You cannot reply to topics in this forum
123GuitarTabs.com :: Music :: Tab Talk :: User Tabs-
Jump to: