123GuitarTabs.com

The Best Guitar Forum On The Web!
 
 HomeHome  FAQFAQ  SearchSearch  MemberlistMemberlist  RegisterRegister  Log in  
Log in
Username:
Password:
Log in automatically: 
:: I forgot my password
Latest topics
» Well Then
Wed Nov 05, 2008 12:46 am by BassXRocker

» What Are You Listening To Right Now?
Mon Nov 03, 2008 6:17 pm by Starom

» Band names that would never make it
Mon Nov 03, 2008 6:16 pm by Starom

» Best, Good, Bad ( and maybe Worse)
Sun Oct 26, 2008 12:18 pm by Starom

» Tab requests
Tue Oct 21, 2008 8:52 pm by Buckethead

» Analog Recording
Wed Oct 15, 2008 10:15 pm by Blackdog7

» what now?
Wed Oct 15, 2008 10:10 pm by Blackdog7

» John Mayer
Wed Oct 15, 2008 12:43 am by Blackdog7

» Simple Man intro
Wed Oct 15, 2008 12:41 am by Blackdog7

Top posters
numberonejrio (373)
 
BassXRocker (294)
 
GuitarGod804 (239)
 
jimthams (231)
 
Buckethead (196)
 
Starom (182)
 
TheLonging (136)
 
Devil_panda (95)
 
Nizzi (62)
 
Blackdog7 (47)
 
Poll
Forums new look
Like it!
43%
 43% [ 3 ]
Change back to the old style!
57%
 57% [ 4 ]
Total Votes : 7
Search
 
 

Display results as :
 
Rechercher Advanced Search
Social bookmarking
Social bookmarking digg  Social bookmarking delicious  Social bookmarking reddit  Social bookmarking stumbleupon  Social bookmarking slashdot  Social bookmarking yahoo  Social bookmarking google  Social bookmarking blogmarks  Social bookmarking live      

Bookmark and share the address of 123guitartabs.com on your social bookmarking website

Bookmark and share the address of 123GuitarTabs.com on your social bookmarking website
Tuner

Share | 
 

 Abyxated - Spontaneous Self Degeneration

Go down 
AuthorMessage
Starom
Registered User
avatar

Posts : 182
Join date : 2008-07-31
Location : Manchester ^^

PostSubject: Abyxated - Spontaneous Self Degeneration   Thu Jul 31, 2008 2:35 pm

I don't know if there are any deathgrind/grindcore fans, but here's a favourite that I've written for my band. It's only short (1:49), but I'd love to know what you think ^^ For any users of Guitar-Pro, I've left a link from which you can download the GuitarPro tab! Thanks for giving it a listen if you do, or just for reading and I'm sorry it's not in code - I don't know what to do with it ^^;

Guitar 1
H. S S S S W
C#||-------|-------|-------|-----------------------|-------------------|
G#||-------|-------|-------|-----------------------|-------------------|
E ||-------|-------|-------|-----------------------|-------------------|
B ||-------|-------|-------|--0------------0-0-0-0-|--0----------------|
F#||-------|-------|-------|--0------------0-0-0-0-|--0----------------|
B ||-------|-------|-------|--0------------0-0-0-0-|--0----------------|


H. S S S S H Q Q H. S S S S
-----------------------|---------------------|-----------------------|
-----------------------|---------------------|-----------------------|
-----------------------|---------------------|-----------------------|
--0------------0-0-0-0-|--0--------0----1----|--0------------0-0-0-0-|
--0------------0-0-0-0-|--0--------0----1----|--0------------0-0-0-0-|
--0------------0-0-0-0-|--0--------0----1----|--0------------0-0-0-0-|


W
W H. S S S S H Q Q
-------------------|-----------------------|------------------------|
-------------------|-----------------------|------------------------|
-------------------|-----------------------|------------------------|
--0----------------|--0------------0-0-0-0-|--0--------0----<>1b----|
--0----------------|--0------------0-0-0-0-|--0--------0----<>1b----|
--0----------------|--0------------0-0-0-0-|--0--------0----<>1b----|


W W W
-------------------|-------------------|-------------------|
-------------------|-------------------|-------------------|
-------------------|-------------------|-------------------|
--0----------------|--L----------------|--0----------------|
--0----------------|--L----------------|--0----------------|
--0----------------|--L----------------|--0----------------|


W
H Q Q W W
------------------------|-------------------|-------------------|
------------------------|-------------------|-------------------|
------------------------|-------------------|-------------------|
--L--------L----<>1b----|--0----------------|--L----------------|
--L--------L----<>1b----|--0----------------|--L----------------|
--L--------L----<>1b----|--0----------------|--L----------------|


W
W H Q Q W
-------------------|------------------------|-------------------|
-------------------|------------------------|-------------------|
-------------------|------------------------|-------------------|
--0----------------|--L--------L----<>1b----|--L----------------|
--0----------------|--L--------L----<>1b----|--L----------------|
--0----------------|--L--------L----<>1b----|--L----------------|


W W H. Q
-------------------|-------------------|--------------------|
-------------------|-------------------|--------------------|
-------------------|-------------------|--------------------|
--L----------------|--L----------------|--L-----------------|
--L----------------|--L----------------|--L-----------------|
--L----------------|--L----------------|--L-----------------|


E E E E E E E E E E E E E E E E
--------------------------|-----------------------------|
--------------------------|-----------------------------|
--------------------------|-----------------------------|
--0--1--3--4--0--1--3--4--|--0--1--3--4--0--1--3--<>4b--|
--0--1--3--4--0--1--3--4--|--0--1--3--4--0--1--3--<>4b--|
--0--1--3--4--0--1--3--4--|--0--1--3--4--0--1--3--<>4b--|


E E E E E E E E E E E E E E E E
--------------------------|-----------------------------|
--------------------------|-----------------------------|
--------------------------|-----------------------------|
--0--1--3--4--0--1--3--4--|--0--1--3--4--0--1--3--<>4b--|
--0--1--3--4--0--1--3--4--|--0--1--3--4--0--1--3--<>4b--|
--0--1--3--4--0--1--3--4--|--0--1--3--4--0--1--3--<>4b--|


E E E E E E E E E E E E E E E E
--------------------------|-----------------------------|
--------------------------|-----------------------------|
--------------------------|-----------------------------|
--0--1--3--4--0--1--3--4--|--0--1--3--4--0--1--3--<>4b--|
--0--1--3--4--0--1--3--4--|--0--1--3--4--0--1--3--<>4b--|
--0--1--3--4--0--1--3--4--|--0--1--3--4--0--1--3--<>4b--|


E E E E E E E E E E E E E E E E Q Q Q Q
--------------------------|-----------------------------|----------------------|
--------------------------|-----------------------------|----------------------|
--------------------------|-----------------------------|----------------------|
--0--1--3--4--0--1--3--4--|--0--1--3--4--0--1--3--<>4b--|--3----3----3----3----|
--0--1--3--4--0--1--3--4--|--0--1--3--4--0--1--3--<>4b--|--3----3----3----3----|
--0--1--3--4--0--1--3--4--|--0--1--3--4--0--1--3--<>4b--|--3----3----3----3----|


Q Q Q Q Q Q Q Q Q Q Q Q
----------------------|----------------------|----------------------|
----------------------|----------------------|----------------------|
----------------------|----------------------|----------------------|
--3----3----3----3----|--3----3----3----3----|--3----3----3----3----|
--3----3----3----3----|--3----3----3----3----|--3----3----3----3----|
--3----3----3----3----|--3----3----3----3----|--3----3----3----3----|


E E E E E E E E E E E E E E E E
--------------------------|-----------------------------|
--------------------------|-----------------------------|
--------------------------|-----------------------------|
--0--1--3--4--0--1--3--4--|--0--1--3--4--0--1--3--<>4b--|
--0--1--3--4--0--1--3--4--|--0--1--3--4--0--1--3--<>4b--|
--0--1--3--4--0--1--3--4--|--0--1--3--4--0--1--3--<>4b--|


E E E E E E E E E E E E E E E E Q Q Q Q
--------------------------|-----------------------------|----------------------|
--------------------------|-----------------------------|----------------------|
--------------------------|-----------------------------|----------------------|
--0--1--3--4--0--1--3--4--|--0--1--3--4--0--1--3--<>4b--|--3----3----3----3----|
--0--1--3--4--0--1--3--4--|--0--1--3--4--0--1--3--<>4b--|--3----3----3----3----|
--0--1--3--4--0--1--3--4--|--0--1--3--4--0--1--3--<>4b--|--3----3----3----3----|


Q Q Q Q Q Q Q Q Q Q Q Q
----------------------|----------------------|----------------------|
----------------------|----------------------|----------------------|
----------------------|----------------------|----------------------|
--3----3----3----3----|--3----3----3----3----|--3----3----4----1----|
--3----3----3----3----|--3----3----3----3----|--3----3----4----1----|
--3----3----3----3----|--3----3----3----3----|--3----3----4----1----|


E E E E E E E E E E E E E E E E
--------------------------|-----------------------------|
--------------------------|-----------------------------|
--------------------------|-----------------------------|
--0--1--3--4--0--1--3--4--|--0--1--3--4--0--1--3--<>4b--|
--0--1--3--4--0--1--3--4--|--0--1--3--4--0--1--3--<>4b--|
--0--1--3--4--0--1--3--4--|--0--1--3--4--0--1--3--<>4b--|


E E E E E E E E E E E E E E E E
--------------------------|-----------------------------|
--------------------------|-----------------------------|
--------------------------|-----------------------------|
--0--1--3--4--0--1--3--4--|--0--1--3--4--0--1--3--<>4b--|
--0--1--3--4--0--1--3--4--|--0--1--3--4--0--1--3--<>4b--|
--0--1--3--4--0--1--3--4--|--0--1--3--4--0--1--3--<>4b--|


E E E E E E E E E E E E E E E E
--------------------------|-----------------------------|
--------------------------|-----------------------------|
--------------------------|-----------------------------|
--0--1--0--4--0--1--0--4--|--0--1--0--4--0--1--0--<>4b--|
--0--1--0--4--0--1--0--4--|--0--1--0--4--0--1--0--<>4b--|
--0--1--0--4--0--1--0--4--|--0--1--0--4--0--1--0--<>4b--|


E E E E E E E E E E E E E E E E H H
--------------------------|-----------------------------|--------------------|
--------------------------|-----------------------------|--------------------|
--------------------------|-----------------------------|--------------------|
--0--1--0--4--0--1--0--4--|--0--1--0--4--0--1--0--<>4b--|--L-----------------|
--0--1--0--4--0--1--0--4--|--0--1--0--4--0--1--0--<>4b--|--L-----------------|
--0--1--0--4--0--1--0--4--|--0--1--0--4--0--1--0--<>4b--|--L-----------------|


Q Q Q Q Q Q Q Q Q Q Q Q
----------------------|-------------------------|----------------------|
----------------------|-------------------------|----------------------|
----------------------|-------------------------|----------------------|
--0----1----0----3----|--0----1----0----<>3b----|--0----1----0----3----|
--0----1----0----3----|--0----1----0----<>3b----|--0----1----0----3----|
--0----1----0----3----|--0----1----0----<>3b----|--0----1----0----3----|


Q Q Q Q Q Q Q Q Q Q Q Q
----------------------|----------------------|-------------------------|
----------------------|----------------------|-------------------------|
----------------------|----------------------|-------------------------|
--0----1----0----4----|--0----1----0----3----|--0----1----0----<>3b----|
--0----1----0----4----|--0----1----0----3----|--0----1----0----<>3b----|
--0----1----0----4----|--0----1----0----3----|--0----1----0----<>3b----|


Q Q Q Q Q Q Q Q W
----------------------|----------------------|-------------------|
----------------------|----------------------|-------------------|
----------------------|----------------------|-------------------|
--0----1----0----3----|--0----1----0----4----|--0----------------|
--0----1----0----3----|--0----1----0----4----|--0----------------|
--0----1----0----3----|--0----1----0----4----|--0----------------|


W W W
-------------------|-------------------|-------------------||
-------------------|-------------------|-------------------||
-------------------|-------------------|-------------------||
--L----------------|--L----------------|--L----------------||
--L----------------|--L----------------|--L----------------||
--L----------------|--L----------------|--L----------------||


I would post the bass part but it's pretty bland... And the drum part made the post too big XD

4shared.com/file/57264813/1f564020/Spontaneous_Self_Degeneration.html

Thanks for looking Very Happy
Back to top Go down
View user profile http://www.furaffinity.net/user/morats
numberonejrio
Extreme Poster!
avatar

Posts : 373
Join date : 2008-06-16
Age : 23
Location : You Child Molester!

PostSubject: Re: Abyxated - Spontaneous Self Degeneration   Thu Jul 31, 2008 5:02 pm

Pretty cool. Could use a solo though.

9.5/10
Back to top Go down
View user profile http://numberonejrioproductions.co.nr
Starom
Registered User
avatar

Posts : 182
Join date : 2008-07-31
Location : Manchester ^^

PostSubject: Re: Abyxated - Spontaneous Self Degeneration   Thu Jul 31, 2008 5:14 pm

Thanks ^^ I'd like to put in a solo, but I can never write them XD I've tried on one of the newer songs. When it's done, I'll stick the tab up here again and I'd be very grateful for feedback.
Back to top Go down
View user profile http://www.furaffinity.net/user/morats
Buckethead
Admin


Posts : 196
Join date : 2008-06-22
Age : 25
Location : Somewhere Over The Slaughterhouse

PostSubject: Re: Abyxated - Spontaneous Self Degeneration   Thu Jul 31, 2008 7:27 pm

Hey, glad to see what Nizzi did got someone else to join =D

I'm not really a grindcore person, so I'm trying to make this fair, but it does look to need a solo...

_________________
It appears that I am the first official Banjo player of the 123guitartabs community.

Now sit down and lemme show y'all what I can do without them amplifiers.

--

jimthams wrote:
↓ is nubzor

Buckethead wrote:
^ Watches too much pr0n

< probably doesn't watch enough pr0n

V can't play a banjo

jimthams wrote:
^ got all three rite

< is gonna go watch prØn

v is gonna b all alone online
Back to top Go down
View user profile
Starom
Registered User
avatar

Posts : 182
Join date : 2008-07-31
Location : Manchester ^^

PostSubject: Re: Abyxated - Spontaneous Self Degeneration   Fri Aug 01, 2008 7:39 am

Thanks for the feedback ^^ I'm a great fan of bands like Suicide Silence, Brujeria or Nasum which rarely incorporate solos into their music, but it's something that I've always wanted to try. I'm going to give it a bash on my next song though.
Back to top Go down
View user profile http://www.furaffinity.net/user/morats
numberonejrio
Extreme Poster!
avatar

Posts : 373
Join date : 2008-06-16
Age : 23
Location : You Child Molester!

PostSubject: Re: Abyxated - Spontaneous Self Degeneration   Fri Aug 01, 2008 1:23 pm

Yeah, try to find a good scale for it. I'm not sure how to find it in the tuning for this though O_o.

Meh, you'll find one Very Happy
Back to top Go down
View user profile http://numberonejrioproductions.co.nr
Starom
Registered User
avatar

Posts : 182
Join date : 2008-07-31
Location : Manchester ^^

PostSubject: Re: Abyxated - Spontaneous Self Degeneration   Fri Aug 01, 2008 2:47 pm

Good old dropped B Wink Classic tuning ^^

I usually work any solos that I do around minor blues, pentatonics or minor scales, and since it's in B, I'd probably go for B minor or B pentatonic.
Back to top Go down
View user profile http://www.furaffinity.net/user/morats
Sponsored content




PostSubject: Re: Abyxated - Spontaneous Self Degeneration   

Back to top Go down
 
Abyxated - Spontaneous Self Degeneration
Back to top 
Page 1 of 1

Permissions in this forum:You cannot reply to topics in this forum
123GuitarTabs.com :: Music :: Tab Talk :: User Tabs-
Jump to: